4 урок ( понимаем табулатуру ) - Уроки - Каталог статей - Уроки по Гитаре

Вы вошли как Гость | Группа "Гости"Приветствую Вас Гость | RSS     


Главная » Регистрация/Вход » ВыходВоскресенье
04.12.2016
21:17
Главная » Статьи » Уроки

4 урок ( понимаем табулатуру )

    Табулатура - очень хорошая вещь, она упрощает жизнь гитариста, потому что она "показывает куда зажимать и как играть" данную мелодию.


Самый легкий способ обучения игры на гитаре – изучение гитарных табулатур. Научиться играть гитарные табулатуры (сокращенно табы) очень просто. Гитарные табы напоминают музыкальное произведение, с той лишь разницей, что в нотном письме пять линеек, а в гитарной табе – шесть. Они символизируют струны гитары, где нижняя полоса – самая низкая (толстая) струна. Так выглядит табулатура:
E------------------------- 1-ая струна, самая тонкая

B------------------------- 2-ая струна

G------------------------- 3-ья струна

D------------------------- 4-ая струна

A------------------------- 5-ая струна

E------------------------- 6-ая, самая толстая струна

Цифры, расположенные на полосах, обозначают номер лада, на котором необходимо прижать струну. Так, цифра «1» обозначает 1-ый лад, «2» - второй и т.д. «Открытые» (неприжатые) струны обозначаются нулем («0»). Если струна не должна звучать вовсе – «Х». Так, например, будет выглядеть указание на самую низкую струну в аккорде «G»:
E-------------------------

B-------------------------

G-------------------------

D-------------------------

A-------------------------

E----3--------------------

Имея ввиду, что Вы абсолютный новичок, правша, вспомним, что такое лад. Когда Вы держите гитару, Ваша правая рука извлекает звук. А левая – держит гриф (костыль с ладами). Именно ею зажимаются комбинации нот. На грифе расположены порожки (22 шт., но бывает и больше), расстояние между которыми уменьшается ближе к корпусу. Порожки разделяют лады друг от друга. Чтобы проиграть табулатуру, указанную выше, необходимо третьим пальцем левой руки прижать на третьем ладу 6-ую, самую низкую струну и извлечь из нее звук правой рукой. Поздравляем! Вы только что сыграли на гитаре свою первую ноту. Легко, правда?

Рассмотрим теперь табы разных нот. Начнем с нижней струны и дойдем до верхней.
E---------------------------------------------------------------------------------0----1----3-------------

B---------------------------------------------------------------0----1----3-------------------------------

G----------------------------------------------------0----2-----------------------------------------------

D-----------------------------------0----2----3-----------------------------------------------------------

A-------------------0----2----3---------------------------------------------------------------------------

E----0----1----3-------------------------------------------------------------------------------------------

Вот та же табулатура с указанием нот вместо цифр.
E---------------------------------------------------------------------------------E----F----G-------------

B---------------------------------------------------------------B----C----D-------------------------------

G----------------------------------------------------G----A-----------------------------------------------

D-----------------------------------D----E----F-----------------------------------------------------------

A-------------------A----B----C---------------------------------------------------------------------------

E----E----F----G-------------------------------------------------------------------------------------------

Вы теперь знаете, как прочесть отдельные ноты в гитарном табе. Рассмотрим, как будет выглядеть табулатура аккорда. Аккорд – это, по крайней мере, три ноты, которые воспроизводятся одновременно и звучат в унисон. В табулатуре цифры могут быть также расположены вместе, вертикально в одну линию. В этом случае все струны должны звучать одновременно. Рассмотрим табулатуру аккорда «С». Для удобства на этот раз ноты будут указаны рядом с цифрами.
E------0--------E----------------------------------------------------------------------------------------

B------1--------C----------------------------------------------------------------------------------------

G------0--------G----------------------------------------------------------------------------------------

D------2--------E----------------------------------------------------------------------------------------

A------3--------C----------------------------------------------------------------------------------------

E------X--------------------------------------------------------------------------------------------------

Здесь аккорд «С» играется один раз. То есть, сколько табов аккорда, столько раз он должен быть проигран. В следующей табулатуре показано, что аккорд необходимо воспроизвести четыре раза:
E------0-----0------0------0---------------------------------------------------------------------------------

B------1-----1------1------1---------------------------------------------------------------------------------

G------0-----0------0------0---------------------------------------------------------------------------------

D------2-----2------2------2---------------------------------------------------------------------------------

A------3-----3------3------3---------------------------------------------------------------------------------

E------X-----X------X------X-------------------------------------------------------------------------------

Таким образом, гитарная табулатура – это замечательная возможность обучения быстрой игре на гитаре. Единственный ее недостаток, то, что табы не раскрывают полноценной картины ритма, длительности аккорда, то есть не несут в себе того объема информации, который содержит обычное нотное письмо. Хотя попытки изложить все детали в табулатуре предпринимались, тем не менее, табы всё же существуют лишь для того, чтобы показать, как и где играть тот или иной аккорд.

Если Вы собираетесь выучить песню по табам, у меня для Вас два совета:
1. Прослушайте песню, уловите мотив, представьте, как она звучит. Лишь после этого, воспроизведите её, используя табы.
2. Если табулатура сопровождается нотной записью, используйте это. Зная нотную грамоту, Вы можете самостоятельно составить табы для гитары.

Остановимся на некоторых обозначениях, которые Вам также могут встретиться. Ниже приведены наиболее распространенные из них, которые Вам следует выучить:
b=Bend

r=Release bend

h=Hammer on

p=Pull off

/=Slide up as in 5/7

-Slide down as in 7/5

PM=Palm mute

T=Tap

На самом деле, их гораздо больше, но на первое время и этого будет достаточно. Обозначения показаны в следующей табулатуре:
E---5b----9r7-------------------------------------------------------------------------------------------------

B--------------------12h14---7p5---------------------------------------------------------------------------

G---5/7----7/5------------------------------------------------------------------------------------------------

D---------------------------------------------------------------------------------------------------------------

A------PM5---------------------------------------------------------------------------------------------------

E-------------------------6t7----------------------------------------------------------------------------------

Учтите, это не какая-либо песня, а просто случайная подборка обозначений.

Собрав всю информацию о табулатурном способе записи музыки, Вы фактически сможете изучить любую песню. Все, что Вам нужно, это знать, как она звучит, хорошая гитара, желание и немного практики. И Вы даже не заметите, как начнете удивлять своих друзей игрой на гитаре песен, которые они слышат по радио. Изучение гитарных табулатур занимательно и легко. Однажды постигнув эту науку, Вы станете неугомонным музыкальным виртуозом.

А теперь – за дело! Время идет…


Пример: Песня группы Нирвана


Как играть Smells like teen spirit (Nirvana) Intro
Категория: Уроки | Добавил: S@Nek (05.11.2010)
Просмотров: 11468 | Рейтинг: 2.3/10
Всего комментариев: 0
Добавлять комментарии могут только зарегистрированные пользователи.
[ Регистрация | Вход ]
Меню сайта
Профиль
Гость

Сообщения:

Группа:
Гости
Время:21:17

Гость, мы рады вас видеть. Пожалуйста зарегистрируйтесь или авторизуйтесь!
Музыка
Наш Баннер
Уроки гитары
Друзья сайта
Портал гитаристов
Статистика

Онлайн всего: 1
Гостей: 1
Пользователей: 0
Copyright TRES © 2016 Конструктор сайтов - uCoz